Meherbaan Hua Guitar Tabs - Bang Bang

profile
Music Learning
Jul 08, 2019   •  219 views

Meherbaan Hua Guitar Tabs from Bollywood Hindi movie Bang Bang.

Dil ki maange, thodi thi kam

G|-5-4------5--------5-4------4---------------

D|-------7------------------7-------------------

Har dua bhi, thodi madam

G|-5-4------5--------5-4------4---------------

D|-------7------------------7-------------------

Tune kandhe pe sar jhukaya jab

B|-------5-----5--------------------------------

G|-4-4-----4-----4---------4/5--5-------------

D|--------------------7-7-----------------------

Jaise dargah pe bandhe dhage tab

B|-------5-----5--------------------------------

G|-4-4-----4-----4-----------------------------

D|----------------------7--7-7/4--2------------

Ho…

G|-4-----------4--------------------------------

D|-----7-5-7------------------------------------

Bina mange hi mil gaya hai sab

B|-------5-----5--------------------------------

G|-4-4-----4-----4--------4/5--5--------------

D|--------------------7-7-----------------------

Meherbaan hua hua (play two times)

G|-4--------------------------------------------

D|----7-5-4------55--77-----------------------

Meherbaan hua (stay longer on d note 5th string).

D|--------5---4-4------------------------------

A|-5-7------------------------------------------

Meherbaan hua rab

G|-4-------------------------------------------

D|-----7-5-4-----------------------------------

A|---------------7-7-7-------------------------

Meherbaan hua (stay longer on d note 5th string).

D|--------5---4-4------------------------------

A|-5-7------------------------------------------

Meherbaan hua rab

G|-4-------------------------------------------

D|-----7-5-4-----------------------------------

A|---------------7-7-7-------------------------

Ho fursaton mein, yun achanak

G|-5---5-4-----5--------5-4------4------------

D|-----------7------------------7---------------

Kaise kyon aur hmmm

B|-------------------5--------------------------

G|-5-4-------5--7-------7-5-------------------

D|--------7-------------------------------------

Yeh hua kab

G|-5-4--------4--------------------------------

D|--------7-------------------------------------

Meherbaan hua hua (play two times)

G|-4--------------------------------------------

D|----7-5-4------55--77-----------------------

Meherbaan hua

D|---------5---4-4-----------------------------

A|-5--7-----------------------------------------

Meherbaan hua rab

D|--------4------------------------------------

A|-5-7---------7-7-7--------------------------

Meherbaan hua

D|---------5---4-4-----------------------------

A|-5--7-----------------------------------------

Meherbaan hua rab

D|--------4------------------------------------

A|-5-7---------7-7-7--------------------------

Hathon ko tere apne

G|-4/5--9-7-5/4-4/5—2/4--4----------------

D|---------------------------------------------

Hathon mein le leta hoon

G|-4/5--9-7-5-4/5—2/4—4/2---------------

D|---------------------------------------------

Ke taqdeerein apni sari padloon

G|-----------------2--2-4—2/4-4/2----------

D|-5p4-2-----2-----------------------5-4-2----2------|

A|---------5----------------------------------5

Repeat above 3 lines to play next lines which are similar to above lines.

Abhi abhi toh

B|-------5-------------------------------------

G|-4-5-----7---5-4---------------------------

D|--------------------7-----------------------

Armaan ture they

G|----4---7-5--4------------------------------

D|-7----------------7-5------------------------

Poore ho gaye

G|---------5-4---------------------------------

D|--5-7----------7-----------------------------

Tere rubru

G|------------5-4------------------------------

D|--4-4--5-------------------------------------

Je bhi dikhena

B|-------5-------------------------------------

G|-4-5-----7---5-4---------------------------

D|--------------------7-----------------------

Kahan main khatam

G|----4---7-5--4------------------------------

D|-7----------------7-5------------------------

Kahan tu shuru

G|----------5----------------------------------

D|-5-5--7------7------------------------------

Aankhe teri girti hain jab

G|-5-4------5------5-4------4----------------

D|-------7----------------7--------------------

Ab to neende aati hain tab

G|-5-4------5------5-4------4----------------

D|-------7----------------7--------------------

0



  0