Banjaara Guitar Tabs - Ek Villain

profile
Music Learning
Jul 08, 2019   •  193 views

Banjaara Guitar Tabs from Bollywood hindi movie Ek Villain

Jise zindgi dhoond rahi hai

G|---------6-8-6---------------------------

D|-6-7-9---------9-7h9p7-6--------------

Kya yeh wo mukaam mera hai

G|----------6-8-6--------------------------

D|-6h7-9-----------9—7/9/7-6-----------

Jahaan chain se bus ruk jaun

G|---------6-8-6-6------------------------

D|-6-7-9------------9-7/9-7-6------------

Kyon dil yeh mujhe kehta hai

G|----------6-8-6-6------9-7--------------

D|-6h7-9-------------9--------------------

Jajbaat naye se mile hain

G|-8-9-11-11-9-9-8-6/9-8---------------

Jane kya asar je hua hai

G|-8h9-11-11-9-9-8-6/9-8--------------

Ek aas mili phir mujhko

G|-6-8-9-9-8-6-6-------8-6-6-------------

D|---------------------9----------------------

Jo kabool kisi ne kiya hai

G|-------6-6------------------------------

D|-7-9--------9-7-6---------7-6-------------

A|------------------------9-------------------

Hmm kisi shayer ki gazal

D|-6-66-7p6-4--------4/2-1-----------------

A|------------------7---------------4/11----------

Jo de rooh ko sakoon ke pal

D|----------7/6-4-------4/2-1--------------

A|-11-11-----------7--------------4---4-2---

Koi mujhko yun mila hai

D|----1-1-1-1------1-1-1---------------

A|-2-------------2-----------------------

Jaise banjaare ko ghar

D|----1-1-1h2-2p1-1-------------------

A|-2------------------------4----------------

Naye mausam ki sehar

D|-66-7p6-4-------4/2--1---------------

A|----------------7--------------4/11--------

Ja sard mein dopehar

D|-6h7—7p6-4----------4/2-1--------------

A|--------------------7---------------4--4-2-----

Koi mujhko yun mila hai

B|-----4444---------------444-------------

G|-4------------6-4---4-------------------

Jaise banjare ko ghar

B|-----44-4h5—5p4--4----------------

G|-4--------------------------6-------------

Jaise koi kinara

G|------------6-6/8—6/4----------------

D|-6--999-------------------------------

Deta hai sahara

G|------------6-6h8—6/4----------------

D|-6h9-99-------------------------------

Mujhe wo mila kisi mod par

G|-44-6p4-4-4/6--8-9p6-4/6-4-4-------

D|---------------------------------------------6---

Koi raat ka taara

G|--------------6-6/8—6/4-----------

D|-6--999-------------------------------

Karta hai ujaala

B|-----7-7-5-4--------------------------

G|-4---------------4/6—4/2----------

Waise hi roshan kare wo shehar

G|-4-6-4-6-6--8-9p6-4/6--4-4------------

D|-------------------------------------------6-----

Dard mere wo bhula hi gaya

G|-8-8-6-8-8--11-11-9-8-9------------

Kuch aisa asar hua

G|-9-11-11/13-13-9-9/11-9-8--------

Jeena mujhe phir se wo sikha raha

G|-8-8-6-8---8-6-8-8--4-4/6/8--6-6--

Hmm jaise barish karde tar

D|-6-66-7p6-4--------4/2-1----------------

A|------------------7--------------4/11--------

Ja marham dard par

D|-6h7—7p6-4-------4/2-1--------------

A|-------------------7------------4--4-2-----

Koi mujhko yun mila hai

D|----1-1-1-1------1-1-1------

A|-2-------------2------------

Jaise banjaare ko ghar

D|----1-1-1h2-2p1-1-------------

A|-2------------------------4------

Naye mausam ki sehar

D|-66-7p6-4-------4/2--1---------------

A|---------------7-------------4/11--------

Ja sard mein dopehar

D|-6h7—7p6-4---------4/2-1--------------

A|-------------------7---------------4--4-2-----

Koi mujhko yun mila hai

B|-----4444----------------444-------------

G|-4------------6-4---4-------------------

Jaise banjare ko ghar

B|-----44-4h5—5p4--4----------------

G|-4--------------------------6-------------

#Banjaara #Guitar #GuitarTabs #EkVillain

0



  0