Ghungroo Guitar Tabs easy lesson, sung by Arijit Singh and Shilpa Rao from Bollywood hindi movie War.

Kyun lamhe kharab karein

G|-4/6--7-6-6---2-4---4/6--7-6-6---


Aa ghalti behisab karein

G|-4/6--7--6--6---4\2--2--4---4/6-4-4---


Do pal ki jo neend udi

G|-4/6--7-6-6---2-4---4/6--7-6-6---


Aa poore saare khaab karein

G|-4/6--7--6--6---4\2--2--4---4/6-4-4---


Kya karne hai umron ke waade

B|--------5--5h7--5h-7p5---3--3h5--3h-5p3---2-2-3---

G|-4/6--------------------------------------------------------


Ye jo rehte hain rehne de aadhe

B|--------5--5h7--5h-7p5---3--3h5--3h-5p3---2--2h-3p2-------

G|-4/6---------------------------------------------------------------4--


Do baar nahi ik baar sahi

G|-2-4---4/6--7-6-6---2-4--4/6--7-6-6---


Ik raat ki kar le tu yaari

G|---------------4-6--6/9--7-6--6h-7p6--4--

D|-4/7--6-7-------------------------------------


Subah tak maan ke meri baat

Tu aise zor se naachi aaj

G|-------------4--4--4--4---4\2--4---4--4--4\2--2---2--2--2/4--1-----

D|-4-4---7--------------------------------------------------------------------


Ki ghungroo toot gaye

G|-1-1-2-4--1h-2p1----------------------

D|------------------------4-4-4--4/7--6---


Ki ghungroo toot gaye

G|-1-1-2-4--1h-2p1-----------------------

D|-------------------------4-4-4--4/6--4---


Chhod ke saare sharm aur laaj

Main aise zor se naachi aaj

E|---------------7---7-7-7--7\5--5/7---7-7--7\5-5--5--5--5/7--4-----

B|-7-7---10-------------------------------------------------------------------


Ki ghungroo toot gaye

E|-4-4-5-7---4h-5p4------------------------

B|--------------------------7-7-7--7/10-9---


Ki ghungroo toot gaye

E|-4-4-5-7---4h-5p4-----------------------

B|--------------------------7-7-7--7/9--7---

0



  0

Profile of Bhaskar Mishra
Bhaskar Mishra  •  9w  •  Reply
Hi I've been writing since 2 months. On this amazing platform www.thesocialcomment.com this is not only restricted to writing but also allows you to post your artwork projects and skill video. I thought to share this information about this platform with you will be helpful. Because even you can create your virtual portfolio and earn internships.