Galliyan Guitar Tabs - Ek Villain

profile
Music Learning
Jul 08, 2019   •  401 views

Galliyan Guitar Tabs from Bollywood Hindi movie Ek Villain

Yahin beete din mere

G|-3-3-----3-5---6-6-------------------

D|-------3-------------------------------

Yahin hote hain sawere

G|-3-3------3-5--6-6—5/6—10p8----

D|-------3------------------------------

Yahin marna aur jeena

G|-3-3-----3-5-6-6-5--------------------

D|-------3-------------------------------

Yahin mandir aur madina

G|-3-3------3--5-5-6-6-5/6—10p8---

D|-------3------------------------------

Teri galliyan galliyan teri galliyan

G|-3-5---6-6-6p5--6-6-6--3/1--5-5-5--------

Mujhko bhaye galliyan teri galliyan

G|----3-5-5p3--5-5-5--3-5--6-6-6-------

D|-6-----------------------------------

Tu meri neendo mein sota hai

G|-10-10-10--6-6--5-5-5-5--------

Tu mere ashkon mein rota hai

G|-6-6-6--10--10--8-8-8-8-------

Sargoshi c hai khyalon mein

G|-10-10-10-10--6-6--6-6/8-8/6-6/5---

Tu na ho phir bhi tu hota hai

G|-6-6-6--10-10-10---8-8-8-8---------

Hai silaa

G|-6-8-8/10-8/6-6/8/6/5------

Tu mere eee

G|-6-8-8/10/13/11/10--8-8/10-----

Dard ka

G|-6-8-8/10-8/6-6/8/6/5-----------

Mere dil ki duaayein hain

G|-6-6--5-5--5-5--5/3-3/5-------

Teri galliyan galliyan teri galliyan

G|-3-5---6-6-6p5--6-6-6--3/1--5-5-5----

Mujhko bhaye galliyan teri galliyan

G|----3-5-5p3--5-5-5--3-5--6-6-6---

D|-6-----------------------------------

#Guitar #GuitarTabs #Galliyan #EkVillain

0



  0