Muskurane Ki Wajah Guitar Tabs - City Lights

profile
Tabandchord.Com
Jul 08, 2019   •  458 views

Muskurane Ki Wajah Guitar Tabs by Arijit Singh

Piano part (play 4 times)

B|-7----------7--------------

G|----7-6-7-----6-7--------

D|----------------------7----

Muskurane ki wajah

G|-4-6-7p6-6p4-4-6-7p4----

D|--------------------------------

Tum ho

B|-----7-5-------------------------

G|-4--------7-6-6p4h6p4-------

D|-----------------------------7---

Gungunane ki wajah

B|--------------------------2-------

G|----4-6p4-4/2--2-4-------2---

D|-7--------------------------------

Tum ho

B|-----5--3----------------

G|-2-----------4p2-0-----

Jiya jaye na jaye na jaye na
G|-4p3--3h4/6—3h4/6—3h4/6---

O re piya re

G|-3-3—3/6--4-4-----

O re lamhe tu kahin

G|-4-6-7p6-6p4-4-6-7p4----

Mat jaa

B|-----7-5--------------------------

G|-4--------7-6-6p4h6p4--------

D|------------------------------7---

Ho sake to umar bhar

B|--------------------------2-------

G|----4-6p4-4/2--2-4-------2---

D|-7--------------------------------

Tham ja

B|-----5--3---------------

G|-2-----------4p2-0----

Jiya jaye na jaye na jaye na

G|-4p3--3h4/6—3h4/6—3h4/6---

O re piya re

G|-3-3—3/6--4-4-------

Jiya jaye na jaye na jaye na

G|-4p3--3h4/6—3h4/6—3h4/6---

O re piya re piya re

B|-7-5-5/8-7-------------------------------

G|----------------7/6—6/9/6—6/4-4----

Dhoop aaye toh

B|-7p5-7-------------

G|-----------7-6-7---

Shaon tum lana

B|-7p5-7---------------

G|------------777-6----

Khawhishon ki barishon mein

B|-------7-5-5----------7-5-5/3----

G|-2/6-----------2/6----------------

Bheeg sang jana

B|-3/7-5-----------------

G|----------6-4-6-6/7---

Jiya jaye na jaye na jaye na

G|-4p3--3h4/6—3h4/6—3h4/6---

O re piya re

G|-3-3—3/6--4-4-------

Jiya jaye na jaye na jaye na

G|-4p3--3h4/6—3h4/6—3h4/6---

O re piya re piya re

B|-7-5-5/8-7--------------------------------

G|----------------7/6—6/9/6—6/4-4-----

0



  0