Tu Hi Meri Shab Hai Guitar Tabs from Gangster

Tu hi meri shab hai, subha hai

G|-2-4--5-4-2-4-------------------------

D|--------------------5-----2-5—5/7---

Tu hi din hai mera

G|-2-4--5/4-2--------2----

D|-----------------5---------

Tu hi mera rabb hai, yahan hai

G|-2-4--5/4-2-4-------------------------

D|---------------------5-----2-5—5/7---

Tu hi meri duniya

G|-2-4--5-4---2--------2---

D|-------------------5--------

Tu waqt mere liye

E|-------------------------3---5-3--------

B|-5-5-5--5-5-5---3---------------6---

Tu hi mera lamha

B|-55--6-5/3--3-3-5-----

Kaise rahega bhala

E|-------------------------3----5-3---------

B|-5-5--5-5-5---3-3-----------------6----

Ho ke tu mujhse juda

B|-5-5---6-5-3-3---3-5-------

Woo…

B|---------5----------------------

G|-5--7-------7---5-7--5/7----

Woo...

B|--------5--------------------

G|-5-7-------7---5-4--------

D|------------------------7---

Aankho se padh ke tujhe

G|-5/4--2-1------4---4-4---

D|--------------2--------------

Dil pe maine likha

B|--------5--3/5-----------

G|-4-5--------------2-2---

Tu ban gaya hai mere

G|-5/4--2-1------4----4-4----

D|--------------2----------------

Jeene ki ik wajha

B|--------5--3/5----------

G|-4-5-------------2-2---

Aankho se padh ke tujhe

G|-5/4--2-1-------4----4-4----

D|--------------2-----------------

Dil pe maine likha

B|-------5--3/5-----------

G|-4-5------------2-2----

Tu ban gaya hai mere

G|-5/4--2-1-------4-5/7--7/4-----

D|--------------2---------------------

Jeene ki ik wajaH

B|----------5-6-5--------5-----

G|-4-5-7-----------7----------------

Teri hasee

E----------5-----------------

B|-5-5--------7---7-5-----

Teri ada

E|--------5------------

B|-5-5-------7--5----

Auron se hai

B|-5/3---3/6--5-----------

G|-------------------5/4----

Bilkul juda

B|---------------5------5/3---

G|--4--5-7--------------------

Woo…

B|--------5------------------------

G|-5-7------7---5-7---5/7------

Woo...

B|-------5------------------

G|-5-7-----7---5-4--------

D|---------------------7-----

#TuHiMeriShabHai #GuitarTabs #Guitar #Tabs #Gangster

2



  2

Profile of J
J  •  1y  •  Reply