Lag Ja Gale Guitar Tabs - Lata Mangeshkar (Sanam Puri)

profile
Music Learning
May 21, 2019   •  1222 views

Lag Ja Gale Guitar Tabs and leads sung by Lata Mangeshkar. New version sung by Sanam Puri.

E------7--5-7--7-5/7-5/7-----------------|
B----------------------------------------|
G--7-------------------------------------|
Lag ja gale ke fir yee

E--7-5/7-5/7------5/7--5-5---------------|
B-------------8-8------------7-5h7-------|
G----------------------------------7-----|
wo hasi raat ho o na ho   o .o.. o

E-------------5--------------------------|
B----5-5-5--7---7-5h7--------------------|
G--7------------------7-7----------------|
shayad fir ish janam me


E-----10--12-10-8-8/10--8-7-5------------|
B-----------------------------8----------|
G7-7-------------------------------------|
Mula..kat ho na ho o o

 
E-----7--8-8/7--7------------------------|
B----------------------------------------|
G--7-------------------------------------|
lag ja gale ee...  se...

 
E-----10--9-10--10-12-10-8--8-8----------|
B---7------------------------------------|
Humko mili hai aaj ye

 
E----8-8--12-10-8-8/10--8-7--------------|
B--8-------------------------------------|
Ghadiya Naseeb se

 
E-----10--9-10--10-12-10-8--8-8----------|
B---7------------------------------------|
Jee bhar ke dekh lijiye

E----8-8--12-10-8-8/10--8-7--------------|
B--8-------------------------------------|
Humko Kareeb se
 
 
E------7--5-7--7-5/7-5/7-7-7-------------|
B----------------------------------------|
G--7-------------------------------------|
Fir apke naseeeeeb mein

E--7-5/7-5/7------5/7--5-5---------------|
B-------------8-8------------7-5h7-------|
G----------------------------------7-----|
Wo raa  aaat ho naa ho 

E-------------5--------------------------|
B----5-5-5--7---7-5h7--------------------|
G--7------------------7-7----------------|
shayad fir ish janam me


E-----10--12-10-8-8/10--8-7-5------------|
B-----------------------------8----------|
G7-7-------------------------------------|
Mula kat ho na ho o o

 
E-----7--8-8/7--7------------------------|
B----------------------------------------|
G--7-------------------------------------|
lag ja gale ee  se 
.
Check out other best version with Video tutorials
1



  1