Main Tenu Samjhawan Ki Guitar Tabs

profile
Music Learning
Jul 08, 2019   •  559 views

Main Tenu Samjhawan Ki Guitar Tabs

Nahi jeena tere baajon, nahi jeena nahi jeena (play twice)

B|-4-4-3-----------4----4-6-4---4-6-4---

G|----------5-3-5---------------------------

Main tenu samjhawan ki

G|-3-----3--------------------------------

D|----5------5-------3--3/5---5/3/1---

A|----------------6------------------------

Na tere baajo lagda jee

G|-3-----3-------------------------------

D|----5------5------3--3/5---5/3/1---

A|---------------6------------------------

Tu ki jaane pyar mera

G|-3-3--0--3-5--3/5---5-7---7/3---

D|---------------------------------------

Main kara intezaar tera

B|----------3-2--------------------------------

G|-3-3-0--------5---5/8--7/10-7---5-3---

Tu zind tuhio jaan meri

B|--------3--4-6---4/3/1-------------

G|-3-3------------------------1-3-0---

Main tenu samjhawan ki

G|-3-----3---------------------------------

D|----5-----5-------3--3/5---5/3/1------

A|---------------6--------------------------

Na tere bajjo lagda jee

G|-3-----3---3/5--3--------------------------

D|----5-----------------3-3--3/6--5/3/1---

Mere dil wich reh ke mere

G|----3--3-3--3/5-5--3/5--------

D|-5----------------------------6---

Dil da haal na jaane

G|----5-5---5---10-8--7/3---

D|-6-----------------------------

Tere baajon kaleyan beh ke

G|----3--3-3---3-5-5---5/8--5-----------

D|-5---------------------------------6-------

Ronde nain nimane

G|----5-5--10-8--7/5--5---

D|-6---------------------------

Jeena mera haye

B|-----3-3--4--3/1--1---------

G|-3------------------------3---

Marna mera

B|------3-3--4---

G|-3--------------

Naal tere cee

B|-4/8---6-4--3/1--1--------

G|--------------------------3---

Kar aitbaar mera

G|-3-0--3-5--3/5---5-7--7/3---

Main kara intezaar tera

B|----------3-2-------------------------------

G|-3-3-0--------5---5/8--7/10-7---5-3---

Tu zind tuhio jaan meri

B|-------3--4-6---4/3/1------------

G|-3-3----------------------1-3-0---

Main tenu samjhawan ki

G|-3-----3-------------------------------

D|----5-----5-------3--3/5---5/3/1----

A|---------------6------------------------

Na tere bajjo lagda jee

G|-3-----3---3/5--3---------------------

D|----5----------------3-3--3/6--5/3/1

Ve changa nahio keeta dila

B|-4-3--4-3-4-------4--4-4---5p4--6p3--

G|-----------------5---------------------------

Ve changa nahio keeta dila

B|-4-3--4-3-4------4--4-4---

G|----------------5-------------

Dil mera tod ke

G|-5-5-5--3-------3/5--3-3---

D|--------------6----------------

Ve bada pachtaya tha

B|-4-3--4-3-4-------4--4-4---5p4--6p3--

G|-----------------5---------------------------

Ve bada pachtaya tha

B|-4-3--4-3-4------4--4-4---

G|----------------5-------------

Mere naal jod ke

G|-5-5-5--3-------3/5--3-3---

D|--------------6----------------

0



  0