Jadu Teri Nazar Guitar Tabs - Darr

profile
Music Learning
Jul 30, 2019   •  4094 views

Jadu Teri Nazar Guitar Tabs - Darr


Intro Played on Guitar:

G|----6---6-6-6-6---4-6--4-2-1---

D|-4-----------------------------------

G|----4---4-4-4-4---2-4---2-1--------

D|-2---------------------------------4---

====== Song Start ======

G|-----6---4/6--4--2--1---

D|-4-------------------------

Jadoo Teri Nazar,

G|--------4---2/4--2-1------------

D|-2-2----------------------4--0---

Khushboo Tera Badan

G|-------2---1-----

D|-2----------------

Tu Haan Kar

G|--------1---------

D|---2--------4----

Ya Naa Kar

G|---------7---7/9--7--6---

D|-4-4-----------------------

Tu Hai Meri Kiran [x2]

G|-2-4-2-------------------------------

D|-----------2-4-2-2---4-2-------4---

A|-------------------------------5-------

Mere Khwaabon Ki Tasvir Hai Tu

G|--------7---7/9-7--6-6--4-2--4--2---

D|-4-4-------------------------------------

Bekhabar Meri Taqdeer Hai Tu

G|-6-9-7--6-4-6--4-2--4---4/6---

Tu Kisi Aur Ki Ho Na Jana

G|-6/7--6--4-4--6-4-2--1-------1-------------

D|------------------------------4--------4---0---

Kuch Bhi Kar Jaaonga Main Deewana

G|-------2---1-----

D|-2----------------

Tu Haan Kar

G|--------1---------

D|---2--------4----

Ya Naa Kar

G|---------7---7/9--7--6---

D|-4-4-----------------------

Tu Hai Meri Kiran [x2]

0



  0