Kya Hua Tera Wada Guitar Tabs sung by Md. Rafi Sahab

Kya hua tera wada

G|-2-3/5--3-2-----2-5--------

D|----------------5--------------

Wo kasam wo irada

G|-2-5-5/7-5/3-2------2-5----

D|---------------------5----------

Kya hua tera wada

G|-2-5-5-3-2------2-5---------

D|---------------5---------------

Wo kasam wo irada

G|-2-5-5/7-5/3-2-------2-5----

D|---------------------5----------

Bhulega dil jis din tumhe

G|-----------------------------2-------

D|-2-2-2--3--------2-2-3-------3---

A|---------------3---------------------

Wo din zindgi ka aakhri din hoga

D|-3-5/7--5-5-5-5---5-7-5/7--5/8-7-7----

Kya hua tera wada

G|-----5-5/3--2------2-5------

D|--7--------------5------------

Wo kasam wo irada

G|-2-5-5/7-5/3-2-------2-5----

D|---------------------5----------

Yaad hai mujhko, tune kaha tha

B|-6-5-------------6-6-5-----------

G|-------7-7-7-------------7-7-----

Tumse nahi ruthenge kabhi

G|-7-7--7-5/9-7/5-5/9-7-5-5-

D|-------------------------------

Dil ki tarha se, aan mile hain

B|-6-6-5--------6-5------------

G|---------7-7--------7-7------

Kaise bhala chutenge kabhi

G|-7-7--7-5/9-7/5-5/9-7-5-5-----

Teri baahon mein beeti har shaam

D|-7—8/10-8/7-5h8-7/5-3-5/7-5-3-5--------

Bewafa je bhi kya yaad nahi

G|-3-2-3p2-2------2---------------------------

D|----------------5------5---3p2-------2-3----

A|------------------------------------5-----------

Kya hua tera wada

G|-2-3/5--3-2-----2-5--------

D|----------------5--------------

Wo kasam wo irada

G|-2-5-5/7-5/3-2------2-5----

D|---------------------5----------

0



  0