Kuch Kuch Hota Hai Guitar Tabs easy lesson.

B|--4--5--4--2--0--4--

tum paas aaye

B|--4--5--4--2--0--4--

yu muskaraye...

B|--2--4--2--4--0--2------

G|------------------------2--

tum ne nah jane kya

B|--4--2--4--2--0--0-----

sapne dekhaye...

E|--------------4--4-----2--

B|--0--2--4-----------------

ab to yeh mera dil

E|--------------4--4-----2--

B|--0--2--4-----------------

jageh na sotah hai

B|--2--4--2--4--0--2-------

G|-------------------------2--

kya karoo haaye...

B|--4--2--4--2--0--0---0

kuch kuch hota hai

0



  0

Profile of Amit Kapoor
Amit Kapoor  •  3w  •  Reply
Plzzz add strumming ptn