Tera Ghata Guitar Tabs Single String

profile
Music Learning
Sep 12, 2020   •  49 views

Tera Ghata Guitar Tabs Single String

Kuch soch ke bola hoga tumne

E|-9-------10/12-10-10-----9-7-7-7h9p7-----5/4---5\7---


Ye pyaar bhi tola hoga tumne

E|-9---10/12-10-10-----9-7-7-7h9p7-----5/4-4---


Ab na hai toh phir na sahi dilbar

E|-9-------10/12-10-10-----9-7-7-7h9p7-----5/4---5\7---


Iss dil ko ye samjha liya humne

E|-9----10/12-10-10-----9-7-7-7h9p7-----5/4-4---


Isme tera ghata

E|-12-14----14\17-16---12-14---


Mera kuch nahi jata

E|-14----12-12-10-9---


Zyada pyaar ho jaata

E|-12-14----14\17-16---12-14---


To me sah nahi pata...

E|-14----12-12-10-9---


Isme tera ghata

E|-12-14----14\17-16---12-14---


Mera kuch nahi jata

E|-14----12-12-10-9---


Zyada pyaar ho jaata

E|-12-14----14\17-16---12-14---


To me sah nhi paata .............Hmm

E|-14-14-------12-12-------12-14h16-14-12------10/9---

0



  0