Uska Hi Banaq Guitar Tabs by Arijit Singh

Meri kismat ke

G|---------5----------

D|-5-6--------6-5---

Har ek panne pe

G|----------5-------------

D|-5--6----------6--5---

Mere jeete jee

G|----------5----------------

D|--5--6--------6---5/3---

Baad marne ke

G|-----------5----------------

D|--5---6--------6---5/3---

Mere har ek pal

G|---------7-5----5/7--/10----

D|-5--6--------------------------

Har ek lamhe mein

G|-7--5----5-7-----7—5------------

Tu likh de mera use

G|-7--5------------------------------------

D|---------8-8--6---8/10---10—9/5---

Har kahani mein

G|----------5------------

D|--5--6--------6--5---

Sare kisson mein

G|------------5---------------

D|--5---6----------6---5----

Dil ki duniya ke

G|----------5----------------

D|--5--6--------6---5/3---

Sache rishton mein

G|-----------5----------------

D|--5--6---------6---5/3---

Zindgani ke

G|---------7-5-----5/7--/10----

D|-5--6---------------------------

Sare hisson mein

G|-7--5----5-7-----7—5----

Tu likh de mera use

G|-7-5-------------------------------------

D|---------8-8--6----8/10---10--9/5---

Aye khuda

G|-5--7---8/12------

Aye khuda

G|-2---4----4---2-----

Jab bana uska hi bana

B|------4-4---4---------------------------

G|-3---------------3--------3-------------

D|----------------------6----------6--5---

Aye khuda

G|-5--7---8/12-------

Aye khuda

G|--10--8---5/7----5/3-----

Jab bana uska hi bana

B|------4-4---4---------------------------

G|-3---------------3--------3-------------

D|----------------------6----------6--5---

Uska hoon, usmein hoon

B|-8-8-8---------------------------

G|------------10---8-7-10-10----

Usey hoon, usi ka rehne de

B|-8-----------8-----------------------

G|----10-10------8--7----7---8-8---

Main toh payasa hoon, hai dariya

B|-8-8-8---------------------------------

G|-----------10--8-7---10-10-10------

Woh zariya woh jeene ka mere

B|-8----------------8---------------------------

G|----10-10-10--------8--7---5/7---5-5---

Mujhe ghar de gali de

B|-8-8-8---------------------------

G|------------10---8-7-10-10----

Shehar de usi ke naam pe

B|-8------------8-------------------------------

G|-----10-10------10/12---8/7---7--8-8---

Kadam yeh chale ja

B|-8-8---------------------------

G|-------10---8-7---10-10----

Ruke ab usi ke vaste

B|-8------------8-------------------------

G|-----10-10------8--7---5/7---5-5---

Dil mujhe de agar

G|-5--3—5/7---7-5---7/8-----

Dard de uska par

G|-8-7—8/10---12-13-12---

Uski ho wo hasi

G|-5--3—5/7---7-5---7/8----

Gunje jo mere ghar

G|--8-7---8/10--12-13-12----10-8-7---

Aye khuda

G|-5--7---8/12---------

Aye khuda

G|-2---4----4---2-------------------

Jab bana uska hi bana

B|------4-4---4---------------------------

G|-3---------------3--------3-------------

D|----------------------6----------6--5---

Aye khuda

G|-5--7---8/12---------

Aye khuda

G|--10--8---5/7----5/3------

Jab bana uska hi bana

B|------4-4---4---------------------------

G|-3---------------3--------3-------------

D|----------------------6----------6--5---

0



  0