Bhula Dunga Guitar Chords - Darshan Raval

profile
Music Learning
Mar 26, 2020   •  1357 views

Bhula Dunga Guitar Chords with strumming pattern easy lesson sung by Darshan Raval.

Capo on 3rd Fret

Strumming Pattern: DUDU D DU

e|-----3--------3-------3---
B|----------6-------6-------
G|-5------------------------

e|-----3--------3-------3---
B|----------6-------6-------
G|-5------------------------

e|-----3--------3-6-4-3-------------------
B|----------6----------------6-4-3--------
G|-5-----------------------------------5---

B|----6--4-6-4-6----
G|-3------------------

e|----------------------3------------------
B|-----6--4-6-4-6--------6-4-3--------
G|-3----------------------------------5---

[Am]Ik pal mein tumko [F]main bhula du[G]nga
Dil [Am]todne ki [F]yeh saza doo[Dm]nga
[Am]Ik pal mein tum[F]ko main bhula du[G]nga
D[Am]il todne [F]ki yeh saza do[Dm]onga

Meri [G]yaadon ke mau[F]sam jo tum ch[Dm]haye
Chahe [G]jitna tum cha[F]hoge par na aa[Am]yenge
[G]Tumse door[F] hum itna ho jayenge

[Am]Lamha lamha tere bin [Dm]jiya na jaaye re
[Em]Dekhun har jagah main bas [Dm7]tere hi saaye re
[G]Lamha lamha tere bin [Dm]jiya na jaaye re
[Em]Dekhun har jagah main bas [Dm7]tere hi saaye [C]re

Main toota hua [G]saaz hoon[F]
Tu meri [Dm7]awaaz tha
[Em]Likhi thi jahan [G]zindagi
[F]Tu meri [Dm7]kitaab tha[Em]
[G]Ab na fikar [F]karna hum jee[Am] jayenge
[G]Iss dard ko dh[F]eere dheere [Am]pee jayenge

Chahe [G]jitna tum cha[F]hoge par na aa[Am]yenge
[G]Tumse door[F] hum itna [Am]ho jayenge
[G]Chahe jitna [F]tum chahoge par [Am]na aayenge
[G]Tumse door[F] hum itna [Am]ho jayenge
[G]Tumse door[F] hum itna [Am]ho jayenge

1



  1