Filhall Guitar Tabs (Filhaal Guitar Tabs) - B Praak

profile
Tabandchord.Com
Nov 19, 2019   •  1247 views

Filhall Guitar Tabs (Filhaal Guitar Tabs) sung by B Praak Starring Akshay Kumar.

Intro
B|-----------4--3-----------------------------6--3-----------------
G|--------3--------5-----3--5-----3--5-----3--------5--3---5/7-----
D|--5--5-----------------------------------------------------------

B|-----------4--3-----------------------------------------------
G|--------3--------5-----3--5-----3--5-----3-----3--------------
D|--5--5--------------------------------------5-----5--3--5-----

Ho kuchh aisa kar kamaal
B|--------3--4---4/8--8---8h-9p8--6---6/8-----
G|---3/5--------------------------------------

Ke tera ho jaaun
B|--3---3h-4p3-----3--------------------------------------
G|--------------5------5\3---5/7---7/10-8---7h-8p7--5-----

Ho kuchh aisa kar kamaal
B|--------3--4---4/8--8---8h-9p8--6---6/8--
G|---3/5-----------------------------------


Ke tera ho jaaun
B|--3---3h-4p3-----3-----------------------------------
G|--------------5------5\3---5/7---7/10-8---7h-8p7--5--

Main kisi aur ka hoon filhall
B|-----------3---3h-4p-3h4--4------3h-4p3--3--------------------
G|---3/5--5-----------------------------------5---5\-3/-5\3-----


Main kisi aur ka hoon filhall
B|-----------3---3h-4p-3h4-----4------3h-4p3--3--------------------
G|---3/5--5--------------------------------------5---5\-3/-5\3-----

Ke tera ho jaaun
B|---------3h-4p3-----3--------------------------------
G|-----5-----------5------5\3---3/5---5\3--5---5/7-----

Main kisi aur ka hoon filhall
B|-----------3---3h-4p-3h4-----4------3h-4p3--3--------------------
G|---3/5--5--------------------------------------5---5\-3/-5\3-----

Ke tera ho jaaun
B|---------3h-4p3-----3--------------------------
G|-----5-----------5------5\3------3/5-----5-----


Eh gall te ghalat ae
B|---6/8--8---6h-8p6-----8-----8--8---6h-8p6-----8-----


Jo vi kar reha Jaani
B|--8--8-----8--9---8\6---6\4---4/6-----


Par eh vi dekh tere bin Kinjh mar reha Jaani
B|-----6--6--6-----4--6-----6--6--6-----4--6-----6--6-----6-----9---9\8---8\6---6/8-----


Ho mar jaange lai sambhal
B|-----------3---3h4-----4------3h-4p3--------------------
G|---3/5--5-----------------------------5---5\-3/-5\3-----


Ho mar jaange lai sambhal
B|-----------3---3h4-----4------3h-4p3--------------------
G|---3/5--5-----------------------------5---5\-3/-5\3-----


Ke tera ho jaaun
B|---------3h-4p3-----3--------------------------------
G|-----5-----------5------5\3---3/5---5\3--5---5/7-----


Main kisi aur ka hoon filhall
B|-----------3---3h-4p-3h4-----4---3h-4p3-----3--------------------
G|---3/5--5--------------------------------------5---5\-3/-5\3-----


Ke tera ho jaaun
B|---------3h-4p3-----3-----------------------
G|-----5-----------5------5\3---3/5-----5-----


In between Music same as Intro but on High Octave
E|-----------11-10-8--------8--------8--------13-10-8------8/10----
B|--8--8--11-------------11-------11-------11----------11----------


E|-----------11-10-8--------8--------8-----------------------------
B|--8--8--11-------------11-------11-------11----8--11-8-----8-----


Mainu pata ke duniya nu
B|---6/8--8--8--8-----8---6h-8p6---6\4---6/8-----


Eh gawara nai ho sakda
B|---6/8--8-----8-----8---8h-9p8---6\4---4/6--6-----


Par jhooth kehnde ne saare Ke pyar dobara nai ho sakda
B|---4/6--6--6-----6---4\3---3\1--1---1/3--3--4---4/6-----6--4---6p4---8\6---4h-6p4---4\3---3h-4p3-----


Par jhooth kehnde ne saare Ke pyar dobara nai ho sakda
B|---4/6--6--6-----6---4\3---3\1--1---1/3--3--4---4/6-----6--4---6p4---8\6---4h-6p4---4\3---3h-4p3-----


Tu mainu puchh na koyi sawaal
B|-----------3---3h4--4---3h-4p3--------------------
G|---3/5--5-----------------------5---5\-3/-5\3-----

Ke tera ho jaaun
B|---------3h-4p3-----3--------------------------------
G|-----5-----------5------5\3---3/5---5\3--5---5/7-----

Main kisi aur ka hoon filhall
B|-----------3---3h-4p-3h4-----4---3h-4p3-----3--------------------
G|---3/5--5--------------------------------------5---5\-3/-5\3-----

Ke tera ho jaaun
B|---------3h-4p3-----3-----------------------
G|-----5-----------5------5\3---3/5-----5-----
1



  1