Suno Na Sangemarmar Guitar Tabs by Arijit Singh

Suno na sangemarmar

B|---------------6-------------------------

G|-5-5--7-8-------8--7--7-8-7-5------


Ki yeh minaren

G|--5--------------5------

D|------8--6--5----------


Kuch bhi nahi hai

B|----------6--------------------

G|-5-7-8------8--7-8-7-5----


Aage tumhare

G|--5--------------5-----

D|------8--6--5---------


Aaj is dil pe mere

G|------------------5/7---------

D|-8-8-6-----6-----------8----

A|----------8--------------------


Raaj tumhara

G|-8/7--5------------(4/5-4)-----------

D|----------8-6-5-----------------------


Taaj tumhara

G|--4—5/7--5---------------------------

D|---------------5/3---3/5--------------


Suno na sangemarmar

B|-------------6-----------------------------

G|-5-5--7-8------8--7—7h8p7p5------


Ki yeh minaare

G|--5-------------8--7--5---------------

D|------8---6-5-------------------------


Bin tere madham madham

G|------5-7------------------------------

D|--8---------8--6-6--5-----------------


Bhi chal rahi hai dhadkan

G|----5-7--------------------------------

D|-8-------8-66--5----------------------


Jab se mile tum humein

G|-------5-------------------------------

D|-7-8-----8-8--8-8/3------------------


Aanchal se tere bandhe

G|--------5------------------------------

D|-7-8-------8-8/9--9-9----------------


Dil ud raha hai

G|-4—5/7--5-----------------------------

D|--------------5/3---3/5-----------------


Suno na aasmaano

B|-------------6---------------------------

G|--5-5-7-8------8-7h8p7p5------------


Ke yeh sitare

G|-5--------------5-----------------------

D|-----8--6--5---------------------------


Kuch bhi nahi hai

B|----------6----------------------------

G|-5-7-8------8—7h8p7p5------------


Aage tumhare

G|--5--------------5--------------------

D|------8--6--5-------------------------


Aaj is dil pe mere

G|------------------5/7-----------------

D|-8-8-6-----6-----------8-------------

A|---------8-----------------------------


Raaj tumhara

G|-8/7--5------------(4/5-4)-----------

D|----------8-6-5-----------------------


Taaj tumhara

G|--4—5/7--5---------------------------

D|---------------5/3---3/5--------------


Suno na sangemarmar

B|-------------6-------------------------

G|-5-5--7-8------8--7—7h8p7p5------


Ki yeh minaare

G|--5-------------8--7--5---------------

D|------8---6-5-------------------------


#SunoNaSangemarmar #Guitar #GuitarTabs #Youngistaan #ArijitSingh

0



  0