Hum Hain Is Pal Yahan Tabs - Kisna

profile
Music Learning
Aug 24, 2020   •  150 views

Hum Hain Is Pal Yahan Guitar Tabs easy lesson from Hindi movie Kisna.

E|--8 7 5-----5--8------------------------------

B|----------8---------5-----5-6-8-10-8-6-3---

E|--8 7 5-----5--8------------------5-7-5-8--

B|----------8---------5-----5-6-8--------------

e|--8--7--8---12--12--12--12-----

e|--8--7--8---13--13--13--13-----

e|--13--15--13--10--8--6--6----

e|--3--3--5--7--5--3------

B|------------------------5--

0



  0