Woh Lamhe Guitar Tabs - Atif Aslam

profile
Music Learning
Jul 08, 2019   •  1004 views

Woh Lamhe Guitar Tabs sung by Atif Aslam

Woh lamhe, woh baatein

B|-5p4-------4----5p4-------4---

G|--------6----------------6-------
Koi na jaane

B|-4/2/5--4------------

G|---------------4--3---
Thi kaisi raatein

B|-55-4------4----

G|---------6--------
Hoo barsaatein

G|-6-4-3---3-4--3/4--3/1----
Wo bheegi bhegi yadein

B|--------------2---------------------

G|-1-1--3-4------3--1/3--1-------

D|--------------------------------4--
Wo bheegi bheegi yaadein

B|--------------2----------------

G|-1-1--3-4------3---1/3----
Na main jaanu

G|---------4-3-----

D|-4--6------------
Na tu jaane

B|-4p2--5/4-----------

G|----------------4-3---
Kaisa hai yeh mausam

G|-----------------4-3---

D|-4--6---6-6-----------
Koi na jaane

B|-4p2--5-4----------

G|---------------4-3---
Kahin se yeh fiza aayi

B|------------------7-5-4---

G|-3-3--4-4-4--------------
Gamon ki dhoop sang layi

B|-----------------7-7--5-4---

G|-3-3--4-4-4----------------
Khafa ho gaye hum

B|-4—4/2--5-4-----------------

G|-------------------4---4/6-----
Juda ho gaye hum

B|-4-4/2--5-4-----------------------------

G|-----------------4-4/6-------------------

D|---------------------------8-6-8-6--4---
Woh lamhe, woh baatein

B|-5p4-------4-----5p4-------4---

G|--------6-----------------6-------
Koi na jaane

B|-4/2/5--4-------------

G|----------------4--3---
Thi kaisi raatein

B|-55-4------4-----------------

G|---------6--------------------
Hoo barsaatein

G|-6-4-3---3-4--3/4--3/1----
Wo bheegi bhegi yadein

B|--------------2----------------------

G|-1-1--3-4------3--1/3--1--------

D|--------------------------------4---
Wo bheegi bheegi yaadein

B|--------------2--------------

G|-1-1--3-4------3---1-3---

1



  1

Profile of Creative Aniket
Creative Aniket  •  1y  •  Reply
Nice 👍