Phir Le Aaya Dil Guitar Tabs - Barfi

profile
Music Learning
Jul 17, 2019   •  1074 views

Phir Le Aaya Dil Guitar Tabs

Phir le aaya dil

B|----------7----8-8---

G|-7--9----------------

Mazboor kya kijiye

B|-8-8--8/12—10/7--7-8/12--10-----

Raas na aaya

B|-13---12---10/7---8-8------

Rehna door kya kijiye

B|-8-8-8--8/12--10/7---7-8/12--10---

Dil keh raha hai

B|-10/5----5-10/13---12—10/5---

Usey mukamal

B|-13--12---10---13--12------

Kar bhi aao

B|-13--12-10---13--12--------

Wo jo adhuri si baat baaki hai

B|-13-12-10-13-12---13/17--15--13-13-12/13—10/12-10---

Wo jo adhuri si baat baaki hai

B|-13-12-10-13-12---888--10-7-8---

#Guitar #Guitartabs #Barfi #ArijitSingh #PhirLeAayaDil

0



  0