Kuch Is Tarha Guitar Tabs Atif Aslam

Kuch is tarha

B|-13---11---10---8---

Teri palkein

B|-10-8--6--5-5---

Meri palkon se mila de

B|-5--6-6/8--8-8---6-8---8/10---

Aasnu tere saare

B|-13/11--10-8-8---6/8--5----

Meri palkon pe saza de

B|-5-6—6/8-8-8--6-8—8/10---

Tu har ghadi har waqt

B|-10-10-8-10------11-10-6-5---

Mere sath raha hai

B|-5-6--6-8/10---6--8-8---

Haan je jism kabhi door

B|-10-8-10---8-8---8/13---

Kabhi paas raha hai

B|-6-6-6---8/10--6-8-8---

Jo bhi gam hai yeh tere

E|-12-13-10/13--12-8--10-10---

Unhe tu mera pata de

E|-8--10-10--10-10--12-10/12--12---

#KuchIsTarha #GuitarTabs #AtifAslam #Guitar #Tabs

0



  0

Profile of J
J  •  48w  •  Reply
👎