Tujhe Kitna Chahne Lage Guitar Tabs

profile
Music Learning
Jul 04, 2019   •  1737 views

Tujhe Kitna Chahne Lage Guitar Hum Tab and leds sung by Arijit Singh from Hindi movie Kabir Singh.

G|--8-8-6---6/8------6--------
D|--------9------8/9---9-9----
Dil ka dariya beh hi gaya 

B|--7-7-7-7----------------------
G|----------------4/6-8-6-6------
D|------------9------------------
Ishq ibaa dat ban hi gaya

G|--8-6---6/8------6------------
D|------9------8/9---9-8\6-9----
Khud ko mujhe tu sonp de

B|--7-7-7-5/7---------------------------
G|------------------4/6-8-6-6-----------
D|--------------9--------------8-6------
A|----------------------------------9---
Meri zaroorat tu ban gaya aa a
e|---------------6-6-----------
B|------7-9-7/9------9-7-7-----
G|--8-9------------------------
Baat dil ki  nazron neki

B|--7-----------------------------
G|----9-8-6/9--9/11-9-8-8--9-8-6--
Sach Keh Raha Teri Kasam

G|----6-8-6\4-4-6-9-8-6-6------
D|--9--------------------------
Tere bin ab na lenge ek bhi dum 

G|----6-8-8-6\4-6-9-6---------
D|--9-----------------9-9-----
Tujhe kitna Chahne Lage Hum 

G|----6-8-6\4-4-6-9-8-6-6----
D|--9------------------------
Tere Saath Ho Jayenge Khatam 

G|----6-8-8-6\4-6-9-6--------
D|--9-----------------9-9----
Tujhe kitna Chahne Lage Hum 
1



  1